The M box

Posts Tagged ‘of’

Fragments of memories guitar tab

Posted by jacktruong on October 12, 2008

Another sweet song from Final Fantasy 8. To tell the truth, I didn’t really remember this song since I played the game a long time ago, but today, I just find the tab, so I tried it out and it’s absolutely beautiful, enjoy!!!!

Song: Fragments of memories

Game: Final Fantasy 8

Composed by Nobuo Uematsu

Tabbed by Richard Schaefer

e------0---3-----------0-----------------------
B--1-3-------3-----1-----0-------------0-1-----
G----------------0-----------0-2---2-2-----0---
D----------------------------------------------
A----------------------------------------------
E----------------------------------------------

e--3-----0---3-----3-5-7-8-7---3-5---5-5-10-8-7-----4
B----1-3-------3-------------------------------------
G----------------------------------------------------
D----------------------------------------------------
A----------------------------------------------------
E----------------------------------------------------

e--8---5-5-7-8-3-----0-----1---0-1---5-3----------5---1-1-3-5-3-5-7-8
B----------------------------3---------------------------------------
G--------------------------------------------------------------------
D--------------------------------------------------------------------
A--------------------------------------------------------------------
E--------------------------------------------------------------------

e--5---1-0----------------8-7-8-5--------
B----3-------3-1-------------------------
G----------------------------------------
D----------------------------------------
A----------------------------------------
E----------------------------------------

e--8-7-8-5----------10-8-5-3----------7-5-3-5
B--------------------------------------------
G--------------------------------------------
D--------------------------------------------
A--------------------------------------------
E--------------------------------------------

Posted in Guitar tab | Tagged: , , , , , , , , , | 1 Comment »

Melodies of life guitar tab

Posted by jacktruong on October 7, 2008

Yes, another famous piece from Final Fantasy series, this time, it’s from Final Fantasy 9. This piece is one of my favorite, along with Eyes on me and Suteki Da ne

Song:Melodies of Life

Game: Final Fantasy IX

Composed by Nobuo Uematsu

Tabbed by Richard Schaefer

Intro

e--4---2---0---------0-----------2-4-5-4-0-4-2---4-0---------------0
B----------------2-4---4-2-0-----------------------------1-0--------
G------------------------------------------------------------2-1----
D-------------------------------------------------------------------
A-------------------------------------------------------------------
E-------------------------------------------------------------------

Main theme

e------------------------------------------------------------
B------------------------------------------------------------
G----1--1-----------------------------------------1-2-1---1--
D---------4-2---2-1---1-2-4-----------1-2-------2-------2---4
A--2----------------4-------2-----2-4-----4-4-2--------------
E------------------------------------------------------------

e-------------------------------------------------------------
B----0---0-2-0------------------------------------------------
G--1-----------2-2-1-1-----1-2---------------------------1-2--
D----------------------4-4---------6-4-2-------2-----2-4-----4
A------------------------------------------2-4----------------
E-------------------------------------------------------------

e------------------------------------------------------------
B------------------------------------------------------------
G----1--1-----------------------------------------1-2-1---1--
D---------4-2---2-1---1-2-4-----------1-2-------2-------2---4
A--2----------------4-------2-----2-4-----4-4-2--------------
E------------------------------------------------------------

e-------------------------------------------------------------
B----0---0-2-0------------------------------------------------
G--1-----------2-2-1-1-----1-2-------------------------1------
D----------------------4-4---------6-4-2-------2-----4---4-2--
A------------------------------------------2-4----------------
E-------------------------------------------------------------

e-------------------------------------------------------------
B----------------------0--------------------------------------
G--2-1---------------1---2-1-------1-------1-2-----1----------
D------4-2-1-2-4-------------4-3-4-----------------------4----
A-------------------------------------------------------------
E-------------------------------------------------------------

e-------------------------------------------------------------
B------------------------------0------------------------------
G--1-2-1---------1-------------------2------------------------
D--------4-2-1-2---------------------------4------------------
A-------------------------------------------------------------
E-------------------------------------------------------------

e-------------------------------------------------------------
B-------------------------------------------------------------
G--------1-------------------------2-1-1----------------------
D--2---4---1-----1-1-2-1-----------------4-4---2----1-2-4-----
A------------------------2-4-----4----------------4-----------
E-------------------------------------------------------------

e-------------------------------------------------------------
B----------0----------------------------0-------------------0-
G--------1------1---------2-1-1-----------2-2-1-1-----1--2----
D--2---4----------1-------------4-4---4-----------4-----------
A-------------------4-----------------------------------------
E-------------------------------------------------------------

e-----------------------
B-----------------------
G--1---1h2-1------------
D------------1-4-4-----2
A-----------------------
E-----------------------

Posted in Guitar tab | Tagged: , , , , , , , , , , , , | 1 Comment »

Theme of love guitar tab

Posted by jacktruong on September 28, 2008

Man! I love this song so much. A romantic piece from Final Fantasy IV. Easy to learn, easy to play and easy to show off to your girl.

If you like this piece, please check out the other guitar tabs from my blog, thank you

Song:Theme of love

Game:Final Fantasy IV

Composed by Nobuo Uematsu

Tabbed by Richard Schaefer

e----------------12-12-----10-12-10---------------10--
B--12--10---------------------------13-12-10----------
G----------9--10-----------------------------12-9-----
D-----------------------------------------------------
A-----------------------------------------------------
E-----------------------------------------------------

e-----10-------------------------------10-------------------
B--13----13-12-10------13-13-----12-13----13-12-10------12--
G--------------------9-----------------------------12-9-----
D-----------------12----------------------------------------
A-----------------------------------------------------------
E-----------------------------------------------------------

e-----------------------12-12-----10-12-10---------------10--
B--10-----12--10---------------------------13-12-10----------
G-----------------9--10-----------------------------12-9-----
D------------------------------------------------------------
A------------------------------------------------------------
E------------------------------------------------------------

e-----10-------------------------------10--------------
B--13----13-12-10------13-13-----12-13----13-12----10--
G--------------------9--------------------------12-----
D-----------------12-----------------------------------
A------------------------------------------------------
E------------------------------------------------------

e--------------12------------12--10-------------10----------10------
B--10--12--13-----------10-------------13-12-13-----------------13--
G--------------------12------------------------------11-12----------
D-------------------------------------------------------------------
A-------------------------------------------------------------------
E-------------------------------------------------------------------

e-----------------------------------------------
B--12-10-12-13----12-10-12-13----13-12--10--12--
G-----------------------------------------------
D-----------------------------------------------
A-----------------------------------------------
E-----------------------------------------------

Posted in Guitar tab | Tagged: , , , , , , , , , , , | 2 Comments »