The M box

Posts Tagged ‘nobuo’

Fragments of memories guitar tab

Posted by jacktruong on October 12, 2008

Another sweet song from Final Fantasy 8. To tell the truth, I didn’t really remember this song since I played the game a long time ago, but today, I just find the tab, so I tried it out and it’s absolutely beautiful, enjoy!!!!

Song: Fragments of memories

Game: Final Fantasy 8

Composed by Nobuo Uematsu

Tabbed by Richard Schaefer

e------0---3-----------0-----------------------
B--1-3-------3-----1-----0-------------0-1-----
G----------------0-----------0-2---2-2-----0---
D----------------------------------------------
A----------------------------------------------
E----------------------------------------------

e--3-----0---3-----3-5-7-8-7---3-5---5-5-10-8-7-----4
B----1-3-------3-------------------------------------
G----------------------------------------------------
D----------------------------------------------------
A----------------------------------------------------
E----------------------------------------------------

e--8---5-5-7-8-3-----0-----1---0-1---5-3----------5---1-1-3-5-3-5-7-8
B----------------------------3---------------------------------------
G--------------------------------------------------------------------
D--------------------------------------------------------------------
A--------------------------------------------------------------------
E--------------------------------------------------------------------

e--5---1-0----------------8-7-8-5--------
B----3-------3-1-------------------------
G----------------------------------------
D----------------------------------------
A----------------------------------------
E----------------------------------------

e--8-7-8-5----------10-8-5-3----------7-5-3-5
B--------------------------------------------
G--------------------------------------------
D--------------------------------------------
A--------------------------------------------
E--------------------------------------------
Advertisements

Posted in Guitar tab | Tagged: , , , , , , , , , | 1 Comment »

Ami guitar tab

Posted by jacktruong on October 10, 2008

From Final Fantasy 8, I don’t remember where this song played in the game( I played it a long time ago), but I still remember its sweet melody. A short and fun song

Song:Ami theme

Game:Final Fantasy 8

Composed by Nobuo Uematsu

Tabbed by Richard Schaefer

e------0---4-2----------------------2---0-0
B--2-3---------3-3----------0-2-3-----4----
G------------------------------------------
D------------------------------------------
A------------------------------------------
E------------------------------------------

e------0---4-2-----------------------------
B--2-3---------3-3----------0-2-3-----0----
G-----------------------------------1---2-2
D------------------------------------------
A------------------------------------------
E------------------------------------------

e----0-2--5-5-------0--5-5---------2---0--9
B--3------------2-3----------0-2-3---4-----
G------------------------------------------
D------------------------------------------
A------------------------------------------
E------------------------------------------

e----0-2--5-5-------0--5-5---5-4-2-0-------
B--3------------2-3------------------3-2-0-
G------------------------------------------
D------------------------------------------
A------------------------------------------
E------------------------------------------

Posted in Guitar tab | Tagged: , , , , , , , , , | Leave a Comment »

You are not alone guitar tab

Posted by jacktruong on October 9, 2008

No, this song is no Michael Jackson, this one is from Final Fantasy 9, and it’s a wonderful one.

Song: You are not alone

Game: Final Fantasy 9

Composed by Nobuo Uematsu

Tabbed by Richard Schaefer

e--------------------------------------0-0-0----------------------
B--1---------------1-1-1-0-------------------3-1---1-0---0-1-0---0
G------2---0-2-------------2---0-2---------------------2-------2--
D--------------2-------------------2------------------------------
A-----------------------------------------------------------------
E-----------------------------------------------------------------

e----------------------------------0---0-0-0----------------------
B--1---------------1-1-1-0-------------------3-1---1-0---1-0------
G------2---0-2-------------2---0-2---------------------2-----2-0-2
D--------------2--------------------------------------------------
A-----------------------------------------------------------------
E-----------------------------------------------------------------

e----------5-3-----------------0-------------0--8-7---------------
B--1-0-----------3-1-3---3-1-3-----------1-3----------------------
G------2-------------------------2---2----------------------------
D-----------------------------------------------------------------
A-----------------------------------------------------------------
E-----------------------------------------------------------------

e--5-3-5-7-8---5-3---------0--------------------------------------
B------------------3-3-1-3-------------0-1-0----------------------
G----------------------------2-----2---------0-0h2----------------
D-----------------------------------------------------------------
A-----------------------------------------------------------------
E-----------------------------------------------------------------

Posted in Guitar tab | Tagged: , , , , , , , , , , , , | 1 Comment »

Melodies of life guitar tab

Posted by jacktruong on October 7, 2008

Yes, another famous piece from Final Fantasy series, this time, it’s from Final Fantasy 9. This piece is one of my favorite, along with Eyes on me and Suteki Da ne

Song:Melodies of Life

Game: Final Fantasy IX

Composed by Nobuo Uematsu

Tabbed by Richard Schaefer

Intro

e--4---2---0---------0-----------2-4-5-4-0-4-2---4-0---------------0
B----------------2-4---4-2-0-----------------------------1-0--------
G------------------------------------------------------------2-1----
D-------------------------------------------------------------------
A-------------------------------------------------------------------
E-------------------------------------------------------------------

Main theme

e------------------------------------------------------------
B------------------------------------------------------------
G----1--1-----------------------------------------1-2-1---1--
D---------4-2---2-1---1-2-4-----------1-2-------2-------2---4
A--2----------------4-------2-----2-4-----4-4-2--------------
E------------------------------------------------------------

e-------------------------------------------------------------
B----0---0-2-0------------------------------------------------
G--1-----------2-2-1-1-----1-2---------------------------1-2--
D----------------------4-4---------6-4-2-------2-----2-4-----4
A------------------------------------------2-4----------------
E-------------------------------------------------------------

e------------------------------------------------------------
B------------------------------------------------------------
G----1--1-----------------------------------------1-2-1---1--
D---------4-2---2-1---1-2-4-----------1-2-------2-------2---4
A--2----------------4-------2-----2-4-----4-4-2--------------
E------------------------------------------------------------

e-------------------------------------------------------------
B----0---0-2-0------------------------------------------------
G--1-----------2-2-1-1-----1-2-------------------------1------
D----------------------4-4---------6-4-2-------2-----4---4-2--
A------------------------------------------2-4----------------
E-------------------------------------------------------------

e-------------------------------------------------------------
B----------------------0--------------------------------------
G--2-1---------------1---2-1-------1-------1-2-----1----------
D------4-2-1-2-4-------------4-3-4-----------------------4----
A-------------------------------------------------------------
E-------------------------------------------------------------

e-------------------------------------------------------------
B------------------------------0------------------------------
G--1-2-1---------1-------------------2------------------------
D--------4-2-1-2---------------------------4------------------
A-------------------------------------------------------------
E-------------------------------------------------------------

e-------------------------------------------------------------
B-------------------------------------------------------------
G--------1-------------------------2-1-1----------------------
D--2---4---1-----1-1-2-1-----------------4-4---2----1-2-4-----
A------------------------2-4-----4----------------4-----------
E-------------------------------------------------------------

e-------------------------------------------------------------
B----------0----------------------------0-------------------0-
G--------1------1---------2-1-1-----------2-2-1-1-----1--2----
D--2---4----------1-------------4-4---4-----------4-----------
A-------------------4-----------------------------------------
E-------------------------------------------------------------

e-----------------------
B-----------------------
G--1---1h2-1------------
D------------1-4-4-----2
A-----------------------
E-----------------------

Posted in Guitar tab | Tagged: , , , , , , , , , , , , | 1 Comment »

Aeris theme guitar tab

Posted by jacktruong on September 29, 2008

Holy cow! This piece is plain wonderful. Peaceful, a little sad, I and keep playing and listening to it forever

If you love this tab, please check out other game and FF music tab in my blog

And feel free to leave comment to improve this, thank you!!!

Song: Aeris theme

Game: Final Fantasy VII

Composed by Nobuo Uematsu

Tabbed by Richard Schaefer

e------------------------------0---------------
B------3-----1-------------3-2---3-0-2---------
G----2---------2---------2-------------2-------
D--4-------------2-----4-------------------2---
A----------------------------------------------
E----------------------------------------------

e---------------------------------------
B------3-----1--------------------------
G----2---------2------------------------
D--4-------------2-----0h2p0---3-2-0-2-0
A---------------------------------------
E---------------------------------------

e---------------------------------------------
B----------------------0-2-3---0--------------
G--------------0-2-----------------0--2h4p2---
D--0-2-4-----4--------------------------------
A---------------------------------------------
E---------------------------------------------

e-------------------------------------------
B--------------------------------------0-2-3
G--2-----------4-2---------2----------------
D----4-------------0---------4--------------
A------4-----------------------4------------
E-------------------------------------------

e------------------------------------------2-2---
B--3---2---0---------------3---2---0---2---------
G--------------2---------------------------------
D--------------------4---------------------------
A------------------------------------------------
E------------------------------------------------

e---------------------------------------------------
B--3---2---0----------------------------------------
G--------------2---------------0-----------0--------
D--------------------2-----2-4---4-2-0-------4-0-2-0
A---------------------------------------------------
E---------------------------------------------------

e-------------------------------------------------
B--3---2---0-------------------------------------0
G--------------2---------------0-----------0------
D--------------------2-----2-4---4-2-0------------
A-------------------------------------------------
E-------------------------------------------------

Posted in Guitar tab | Tagged: , , , , , , , , , , | 1 Comment »

Theme of love guitar tab

Posted by jacktruong on September 28, 2008

Man! I love this song so much. A romantic piece from Final Fantasy IV. Easy to learn, easy to play and easy to show off to your girl.

If you like this piece, please check out the other guitar tabs from my blog, thank you

Song:Theme of love

Game:Final Fantasy IV

Composed by Nobuo Uematsu

Tabbed by Richard Schaefer

e----------------12-12-----10-12-10---------------10--
B--12--10---------------------------13-12-10----------
G----------9--10-----------------------------12-9-----
D-----------------------------------------------------
A-----------------------------------------------------
E-----------------------------------------------------

e-----10-------------------------------10-------------------
B--13----13-12-10------13-13-----12-13----13-12-10------12--
G--------------------9-----------------------------12-9-----
D-----------------12----------------------------------------
A-----------------------------------------------------------
E-----------------------------------------------------------

e-----------------------12-12-----10-12-10---------------10--
B--10-----12--10---------------------------13-12-10----------
G-----------------9--10-----------------------------12-9-----
D------------------------------------------------------------
A------------------------------------------------------------
E------------------------------------------------------------

e-----10-------------------------------10--------------
B--13----13-12-10------13-13-----12-13----13-12----10--
G--------------------9--------------------------12-----
D-----------------12-----------------------------------
A------------------------------------------------------
E------------------------------------------------------

e--------------12------------12--10-------------10----------10------
B--10--12--13-----------10-------------13-12-13-----------------13--
G--------------------12------------------------------11-12----------
D-------------------------------------------------------------------
A-------------------------------------------------------------------
E-------------------------------------------------------------------

e-----------------------------------------------
B--12-10-12-13----12-10-12-13----13-12--10--12--
G-----------------------------------------------
D-----------------------------------------------
A-----------------------------------------------
E-----------------------------------------------

Posted in Guitar tab | Tagged: , , , , , , , , , , , | 2 Comments »

Chocobo theme guitar tab

Posted by jacktruong on September 27, 2008

no, they’re not chicken and they’re not edible

a little song about those little cutie we see all the time in Final Fantasy series

This one require a little more practice because you will have to play it fast, but just do it again and again and you’re good to go

Song: Chocobo theme

Composed by Nobuo Uematsu

Tabbed by Richard Schaefer

e------------------------------------------------------0-1
B--3---------3---------------------------------------3----
G------4-0-----4-0-4--0--4---2-0-0-2-0---0-----0-0-4------
D----------2---------------------------3-----3------------
A---------------------------------------------------------
E--------------------------------------------------------- x2

e--0-------------0----3----------------------------------
B------1-------1---3-----3---0-1------------1-0-0-1-0---0
G--------2---2--------------------2-------2-----------2--
D----------4------------------------4-0-4----------------
A--------------------------------------------------------
E--------------------------------------------------------

e--0-------------0----3----------------------------------0---2----------3
B------1-------1---3-----3-------------------------0-1-3-----------------
G--------2---2---------------4-2-2-4-2-0-2---0-2-2-----------------------
D----------4-------------------------------------------------------------
A------------------------------------------------------------------------
E------------------------------------------------------------------------

Posted in Guitar tab | Tagged: , , , , , , , , , , | 1 Comment »

To Zanarkand guitar tab

Posted by jacktruong on September 26, 2008

A famous piece of music in Final Fantasy X. Simple and easy to play, this one can rock any girl’s heart and any guitar player can play(I’m a beginner and I can play this, it mean you can play it, now, just do it)

Game: Final Fantasy X

Song: To Zanarkand

Composed by Nobuo Uematsu

Tabbed by Richard Schaefer

Intro

e--0-------0-2-3--------------------0-2
B--------0----------------3-------3----
G------0------------------------2------
D----2----------------------0-3--------
A--------------------------------------
E--------------------------------------

e--7-7-7-7-5---10-3----------0-0-0-0-----3--
B------------------------------------3-----1
G-------------------------------------------
D-------------------------------------------
A-------------------------------------------
E-------------------------------------------

Main Theme

e--0-----0-2-3-2-0-----0--------------0-----0-2-3-2-3-5-3-5-7
B------0-----------3-----3-0--------------0------------------
G------------------------------------------------------------
D------------------------------------------------------------
A------------------------------------------------------------
E------------------------------------------------------------

e--0-----0-2-3-2-0-----0--------------------------------------------
B------0-----------3-----3-0--------------0-0-0-0-----3-------------
G-------------------------------------0-2---------2------0---0------
D--------------------------------------------------------------4-0-2
A-------------------------------------------------------------------
E-------------------------------------------------------------------

e------0-0---------3-3----------7---14-14----------5---12-12-11
B----------3-1-0-----------------------------------------------
G--2-----------------------------------------------------------
D--------------------------------------------------------------
A--------------------------------------------------------------
E--------------------------------------------------------------

e------2-2-0-------5-5----------4-0-------2------------
B--0---------3-2--------------------2-0---------------0
G-------------------------------------------2-------2--
D-------------------------------------------------4----
A------------------------------------------------------
E------------------------------------------------------

Posted in Guitar tab | Tagged: , , , , , , , | 1 Comment »

Suteki Da Ne guitar tab

Posted by jacktruong on September 24, 2008

yup, another tab, enjoy!!!

Final Fantasy X

Song: Suteki Da ne (Isn’t it beautiful)

Composer:Nobuo Uematsu

Tabbed by: Richard Schaefer

e------1-----0-------------------------0-----0-------------------------------
B----------------1-3-----1---1-----------------------------------------------
G--2-3---0-2-----------------2---2-------------2-----0-2----2--0------2---3-2
D--------------3-----2-3-----2---------------------------0--------2----------
A-------------------------------------------------------------------3--------
E----------------------------------------------------------------------------

e----------0---3-1--0-----1-3-5---------1-0------
B--3-----3-------------3--------------------3-1-3
G------2------------------------------2----------
D------------------------------------------------
A------------------------------------------------
E------------------------------------------------

e-------------------------------------------------------
B-------------------------------------------------------
G----------------0-2---3-2-0-----2---0------------------
D--0---2-3-2---3-----------------------3-2-----3---2-0--
A------------------------------------------------------3
E-------------------------------------------------------

e-----------------------------------------------------
B-----------------------------------------------------
G----------------0-2---3-2-0-----2---0----------------
D--0---2-3-2---3-----------------------3-2---------0-0
A--------------------------------------------3---3----
E-----------------------------------------------------

Repeat

Then the drums come in

e------5---8--------5---------------5---8------------
B--6-8--------8---------8-6---6-6-8---------8---6-5--
G---------------------------7-----------------------7
D----------------------------------------------------
A----------------------------------------------------
E----------------------------------------------------

e------5---8--------5---------------5---8---12---8---10
B--6-8--------8---------8-6---6-6-8--------------------
G---------------------------7--------------------------
D------------------------------------------------------
A------------------------------------------------------
E------------------------------------------------------

e--10---8--------------------8-------------------------
B-----------11---10--------------10---5-----6-6--------
G-----------------------------------------7------------
D------------------------------------------------------
A------------------------------------------------------
E------------------------------------------------------

e--5-------------5------------5---12---8---10
B------8---6---8-----------------------------
G------------------5-------------------------
D--------------------------------------------
A--------------------------------------------
E--------------------------------------------

Posted in Guitar tab | Tagged: , , , , , , , , | Leave a Comment »

Eyes on me guitar tab

Posted by jacktruong on September 23, 2008

ok, confess time, I’m still stuck at beginner level but it doesn’t mean I can’t play some simple yet beautiful tunes. This is one of them, 100% playable guarranted, if someone as suck as me can play, then you definitely can, just grab any guitar and try this out.

Final Fantasy VIII

Song:Eyes on me

Composer: Nobuo Uematsu( gotta love this guy)

Tabbed by Richard Schaefer (richard@gametabs.net)(credit to this guy)
e-----------0--3-0-------0---------------
B-----1--3-------------3---1------1--3---
G--0---------------------------2---------
D----------------------------------------
A----------------------------------------
E----------------------------------------

Whenever sang my songs, on the stage, on my own...

e-----------0--3-7----------7-8-5---3-5-3
B-----1--3-------------------------------
G--0-------------------------------------
D----------------------------------------
A----------------------------------------
E----------------------------------------

Whenever said my words, wishing they, would be heard...

e--3-8---8-7-5--5--3---0-3-5---5-3--1--1---0---
B----------------------------------------3-----
G----------------------------------------------
D----------------------------------------------
A----------------------------------------------
E----------------------------------------------

I saw you smiling at me, was it real or just my fantasy?

e--0-0----0-1--0-----------------------0-3--
B-------3--------3-3-1-------1-1-----3-----3
G--------------------------2----------------
D-------------------------------------------
A-------------------------------------------
E-------------------------------------------

You'd always be there in the corner, of this tiny little bar...

e-----------0--3-0-------0---------------
B-----1--3-------------3---1------1--3---
G--0---------------------------2---------
D----------------------------------------
A----------------------------------------
E----------------------------------------

My last night here for you, same old songs, just once more... 

e-----------0--3-7----------7-8-5---3-5-3
B-----1--3-------------------------------
G--0-------------------------------------
D----------------------------------------
A----------------------------------------
E----------------------------------------

My last night here with you, maybe yes, maybe no...

e--3-8---8-7-5--5--3---0-3-5---5-3-1---0------
B------------------------------------1----3---
G---------------------------------------------
D---------------------------------------------
A---------------------------------------------
E---------------------------------------------

I kind of liked it your way, how you shyly placed your eyes on me... 

e------------0-1-3-------3-1---0---------
B-----1--3-------------------1-------3--1
G--0-------------------------------------
D----------------------------------------
A----------------------------------------
E----------------------------------------

oh did you ever know, that I had mine on you?

e-----0--3-7---5-5-------5-7--8-5--3-3-----
B--1---------------------------------------
G------------------------------------------
D------------------------------------------
A------------------------------------------
E------------------------------------------

Darling so there you are, with that look on your face... 

e--0-1-3-3---1-1-------1-3-5-5---3-3
B-----------------------------------
G-----------------------------------
D-----------------------------------
A-----------------------------------
E-----------------------------------

as if you're never hurt, as if you're never down...

e-------0--3--7---5-5-------1-5-7--8--7--3---7-5-----
B--1-1-----------------------------------------------
G----------------------------------------------------
D----------------------------------------------------
A----------------------------------------------------
E----------------------------------------------------

Shall I be the one for you? Who pinches you softly, but sure. 

e--3-3-1-8--1---------0--0---------------------
B-----------------1-3-------3-1-0--3----------1
G----------------------------------------------
D----------------------------------------------
A----------------------------------------------
E----------------------------------------------

If frown is shown then, I will know that you are no dreamer.

Solo

e--0--3--5---7-5-3-3-0-------------------0---------0-0---
B------------------------3h5p3-1-------1---3--1----------
G------------------------------------2----------2--------
D--------------------------------------------------------
A--------------------------------------------------------
E--------------------------------------------------------

e--0-3-5-----12-10-8-10--3-----1-0-3-----1-0--------
B--------------------------------------------1-1---3
G---------------------------------------------------
D---------------------------------------------------
A---------------------------------------------------
E---------------------------------------------------

End Solo

e-----------0--3-0-------0-------------------------0--3-7-------7-7-8-5-----3-5-3
B-----1--3-------------3---1------1--3-------1--3--------------------------------
G--0---------------------------2-------------------------------------------------
D--------------------------------------------------------------------------------
A--------------------------------------------------------------------------------
E--------------------------------------------------------------------------------

Posted in Guitar tab, Music | Tagged: , , , , , , , , , | Leave a Comment »