The M box

Posts Tagged ‘game’

Ami guitar tab

Posted by jacktruong on October 10, 2008

From Final Fantasy 8, I don’t remember where this song played in the game( I played it a long time ago), but I still remember its sweet melody. A short and fun song

Song:Ami theme

Game:Final Fantasy 8

Composed by Nobuo Uematsu

Tabbed by Richard Schaefer

e------0---4-2----------------------2---0-0
B--2-3---------3-3----------0-2-3-----4----
G------------------------------------------
D------------------------------------------
A------------------------------------------
E------------------------------------------

e------0---4-2-----------------------------
B--2-3---------3-3----------0-2-3-----0----
G-----------------------------------1---2-2
D------------------------------------------
A------------------------------------------
E------------------------------------------

e----0-2--5-5-------0--5-5---------2---0--9
B--3------------2-3----------0-2-3---4-----
G------------------------------------------
D------------------------------------------
A------------------------------------------
E------------------------------------------

e----0-2--5-5-------0--5-5---5-4-2-0-------
B--3------------2-3------------------3-2-0-
G------------------------------------------
D------------------------------------------
A------------------------------------------
E------------------------------------------

Posted in Guitar tab | Tagged: , , , , , , , , , | Leave a Comment »

Fisherman’s horizon guitar tab

Posted by jacktruong on October 10, 2008

From Final Fantasy 8, another wonderful piece. Play it slow and enjoy your beautiful day. Feel free to leave any comment or suggestion to improve this. thanks

Song: Fisherman’s horizon theme

Game: Final Fantasy 8

Composed by Nobuo Uematsu

Tabbed by Richard Schaefer

Intro

e-------------------------------------1----------------------------
B------4-3-4-1-4-----1------------4-----3-4---3-4------------------
G--0-3-----------3-----2-3---------------------------------0-------
D---------------------------3---------------------------------0-1-1
A------------------------------------------------------------------
E------------------------------------------------------------------

Main Theme

e------1-3-----------1------------------1-3----3-6
B--4-4-------4---0-4---4-4----------4-4------4----
G--------------3----------------------------------
D-------------------------------------------------
A-------------------------------------------------
E-------------------------------------------------

e--6-8-6-----1-3---3-1------------------1-3-------
B--------4-------4-----4-1----------4-4------4-1-4
G-------------------------------------------------
D-------------------------------------------------
A-------------------------------------------------
E-------------------------------------------------

e------------------------------------------
B------4-3-----1----------------1----------
G--0-------3-----3----------0-----3-0---2-0
D------------------------------------------
A------------------------------------------
E------------------------------------------

e----------------------------3--------------------------------
B------------3-------------1---3---4----------6-4----------6-4
G----------0-----3-0-1-0-1------------------------------------
D--3-1-0-1----------------------------------------------------
A-------------------------------------------------------------
E-------------------------------------------------------------

Posted in Guitar tab | Tagged: , , , , , , , , , , | 1 Comment »

You are not alone guitar tab

Posted by jacktruong on October 9, 2008

No, this song is no Michael Jackson, this one is from Final Fantasy 9, and it’s a wonderful one.

Song: You are not alone

Game: Final Fantasy 9

Composed by Nobuo Uematsu

Tabbed by Richard Schaefer

e--------------------------------------0-0-0----------------------
B--1---------------1-1-1-0-------------------3-1---1-0---0-1-0---0
G------2---0-2-------------2---0-2---------------------2-------2--
D--------------2-------------------2------------------------------
A-----------------------------------------------------------------
E-----------------------------------------------------------------

e----------------------------------0---0-0-0----------------------
B--1---------------1-1-1-0-------------------3-1---1-0---1-0------
G------2---0-2-------------2---0-2---------------------2-----2-0-2
D--------------2--------------------------------------------------
A-----------------------------------------------------------------
E-----------------------------------------------------------------

e----------5-3-----------------0-------------0--8-7---------------
B--1-0-----------3-1-3---3-1-3-----------1-3----------------------
G------2-------------------------2---2----------------------------
D-----------------------------------------------------------------
A-----------------------------------------------------------------
E-----------------------------------------------------------------

e--5-3-5-7-8---5-3---------0--------------------------------------
B------------------3-3-1-3-------------0-1-0----------------------
G----------------------------2-----2---------0-0h2----------------
D-----------------------------------------------------------------
A-----------------------------------------------------------------
E-----------------------------------------------------------------

Posted in Guitar tab | Tagged: , , , , , , , , , , , , | 1 Comment »

Melodies of life guitar tab

Posted by jacktruong on October 7, 2008

Yes, another famous piece from Final Fantasy series, this time, it’s from Final Fantasy 9. This piece is one of my favorite, along with Eyes on me and Suteki Da ne

Song:Melodies of Life

Game: Final Fantasy IX

Composed by Nobuo Uematsu

Tabbed by Richard Schaefer

Intro

e--4---2---0---------0-----------2-4-5-4-0-4-2---4-0---------------0
B----------------2-4---4-2-0-----------------------------1-0--------
G------------------------------------------------------------2-1----
D-------------------------------------------------------------------
A-------------------------------------------------------------------
E-------------------------------------------------------------------

Main theme

e------------------------------------------------------------
B------------------------------------------------------------
G----1--1-----------------------------------------1-2-1---1--
D---------4-2---2-1---1-2-4-----------1-2-------2-------2---4
A--2----------------4-------2-----2-4-----4-4-2--------------
E------------------------------------------------------------

e-------------------------------------------------------------
B----0---0-2-0------------------------------------------------
G--1-----------2-2-1-1-----1-2---------------------------1-2--
D----------------------4-4---------6-4-2-------2-----2-4-----4
A------------------------------------------2-4----------------
E-------------------------------------------------------------

e------------------------------------------------------------
B------------------------------------------------------------
G----1--1-----------------------------------------1-2-1---1--
D---------4-2---2-1---1-2-4-----------1-2-------2-------2---4
A--2----------------4-------2-----2-4-----4-4-2--------------
E------------------------------------------------------------

e-------------------------------------------------------------
B----0---0-2-0------------------------------------------------
G--1-----------2-2-1-1-----1-2-------------------------1------
D----------------------4-4---------6-4-2-------2-----4---4-2--
A------------------------------------------2-4----------------
E-------------------------------------------------------------

e-------------------------------------------------------------
B----------------------0--------------------------------------
G--2-1---------------1---2-1-------1-------1-2-----1----------
D------4-2-1-2-4-------------4-3-4-----------------------4----
A-------------------------------------------------------------
E-------------------------------------------------------------

e-------------------------------------------------------------
B------------------------------0------------------------------
G--1-2-1---------1-------------------2------------------------
D--------4-2-1-2---------------------------4------------------
A-------------------------------------------------------------
E-------------------------------------------------------------

e-------------------------------------------------------------
B-------------------------------------------------------------
G--------1-------------------------2-1-1----------------------
D--2---4---1-----1-1-2-1-----------------4-4---2----1-2-4-----
A------------------------2-4-----4----------------4-----------
E-------------------------------------------------------------

e-------------------------------------------------------------
B----------0----------------------------0-------------------0-
G--------1------1---------2-1-1-----------2-2-1-1-----1--2----
D--2---4----------1-------------4-4---4-----------4-----------
A-------------------4-----------------------------------------
E-------------------------------------------------------------

e-----------------------
B-----------------------
G--1---1h2-1------------
D------------1-4-4-----2
A-----------------------
E-----------------------

Posted in Guitar tab | Tagged: , , , , , , , , , , , , | 1 Comment »

Aeris theme guitar tab

Posted by jacktruong on September 29, 2008

Holy cow! This piece is plain wonderful. Peaceful, a little sad, I and keep playing and listening to it forever

If you love this tab, please check out other game and FF music tab in my blog

And feel free to leave comment to improve this, thank you!!!

Song: Aeris theme

Game: Final Fantasy VII

Composed by Nobuo Uematsu

Tabbed by Richard Schaefer

e------------------------------0---------------
B------3-----1-------------3-2---3-0-2---------
G----2---------2---------2-------------2-------
D--4-------------2-----4-------------------2---
A----------------------------------------------
E----------------------------------------------

e---------------------------------------
B------3-----1--------------------------
G----2---------2------------------------
D--4-------------2-----0h2p0---3-2-0-2-0
A---------------------------------------
E---------------------------------------

e---------------------------------------------
B----------------------0-2-3---0--------------
G--------------0-2-----------------0--2h4p2---
D--0-2-4-----4--------------------------------
A---------------------------------------------
E---------------------------------------------

e-------------------------------------------
B--------------------------------------0-2-3
G--2-----------4-2---------2----------------
D----4-------------0---------4--------------
A------4-----------------------4------------
E-------------------------------------------

e------------------------------------------2-2---
B--3---2---0---------------3---2---0---2---------
G--------------2---------------------------------
D--------------------4---------------------------
A------------------------------------------------
E------------------------------------------------

e---------------------------------------------------
B--3---2---0----------------------------------------
G--------------2---------------0-----------0--------
D--------------------2-----2-4---4-2-0-------4-0-2-0
A---------------------------------------------------
E---------------------------------------------------

e-------------------------------------------------
B--3---2---0-------------------------------------0
G--------------2---------------0-----------0------
D--------------------2-----2-4---4-2-0------------
A-------------------------------------------------
E-------------------------------------------------

Posted in Guitar tab | Tagged: , , , , , , , , , , | 1 Comment »

Theme of love guitar tab

Posted by jacktruong on September 28, 2008

Man! I love this song so much. A romantic piece from Final Fantasy IV. Easy to learn, easy to play and easy to show off to your girl.

If you like this piece, please check out the other guitar tabs from my blog, thank you

Song:Theme of love

Game:Final Fantasy IV

Composed by Nobuo Uematsu

Tabbed by Richard Schaefer

e----------------12-12-----10-12-10---------------10--
B--12--10---------------------------13-12-10----------
G----------9--10-----------------------------12-9-----
D-----------------------------------------------------
A-----------------------------------------------------
E-----------------------------------------------------

e-----10-------------------------------10-------------------
B--13----13-12-10------13-13-----12-13----13-12-10------12--
G--------------------9-----------------------------12-9-----
D-----------------12----------------------------------------
A-----------------------------------------------------------
E-----------------------------------------------------------

e-----------------------12-12-----10-12-10---------------10--
B--10-----12--10---------------------------13-12-10----------
G-----------------9--10-----------------------------12-9-----
D------------------------------------------------------------
A------------------------------------------------------------
E------------------------------------------------------------

e-----10-------------------------------10--------------
B--13----13-12-10------13-13-----12-13----13-12----10--
G--------------------9--------------------------12-----
D-----------------12-----------------------------------
A------------------------------------------------------
E------------------------------------------------------

e--------------12------------12--10-------------10----------10------
B--10--12--13-----------10-------------13-12-13-----------------13--
G--------------------12------------------------------11-12----------
D-------------------------------------------------------------------
A-------------------------------------------------------------------
E-------------------------------------------------------------------

e-----------------------------------------------
B--12-10-12-13----12-10-12-13----13-12--10--12--
G-----------------------------------------------
D-----------------------------------------------
A-----------------------------------------------
E-----------------------------------------------

Posted in Guitar tab | Tagged: , , , , , , , , , , , | 2 Comments »

Chocobo theme guitar tab

Posted by jacktruong on September 27, 2008

no, they’re not chicken and they’re not edible

a little song about those little cutie we see all the time in Final Fantasy series

This one require a little more practice because you will have to play it fast, but just do it again and again and you’re good to go

Song: Chocobo theme

Composed by Nobuo Uematsu

Tabbed by Richard Schaefer

e------------------------------------------------------0-1
B--3---------3---------------------------------------3----
G------4-0-----4-0-4--0--4---2-0-0-2-0---0-----0-0-4------
D----------2---------------------------3-----3------------
A---------------------------------------------------------
E--------------------------------------------------------- x2

e--0-------------0----3----------------------------------
B------1-------1---3-----3---0-1------------1-0-0-1-0---0
G--------2---2--------------------2-------2-----------2--
D----------4------------------------4-0-4----------------
A--------------------------------------------------------
E--------------------------------------------------------

e--0-------------0----3----------------------------------0---2----------3
B------1-------1---3-----3-------------------------0-1-3-----------------
G--------2---2---------------4-2-2-4-2-0-2---0-2-2-----------------------
D----------4-------------------------------------------------------------
A------------------------------------------------------------------------
E------------------------------------------------------------------------

Posted in Guitar tab | Tagged: , , , , , , , , , , | 1 Comment »

Super Mario theme guitar tab

Posted by jacktruong on September 25, 2008

my all time favorite song, the Super Mariiiiiiiiiiiiiiiiiiiiioooooooooooooooooooo theme

It make me remember the day I was young, back then I was so cute, naive, innocent……

ahem, back to the business, this song is really easy, practice a little bit and you’re good to show off to your friend

what are you wating for? grab any guitar and rock the hell out

Game:Super Mario

e|-0-0-0---0-3---|
B|-------1-------|
G|-------------0-|
D|---------------|
A|---------------|
E|---------------|

e|-----------------0-3-5-1-3-0-----------------------0-3-5-1-3-0-------|
B|-1-------0-------------------1-3-0-1-------0-------------------1-3-0-|
G|---0---2---3-2-0---------------------0---2---3-2-0-------------------|
D|-----2---------------------------------2-----------------------------|
A|---------------------------------------------------------------------|
E|---------------------------------------------------------------------|

e|-3-2-1---0-------------3-2-1---0-7-7-7-----3-2-1---0-------------------|
B|-------4-------1---1-3-------4-------------------4-------1---1-3-4-3-1-|
G|-----------1-2---2-----------------------------------1-2---2-----------|
D|-----------------------------------------------------------------------|
A|-----------------------------------------------------------------------|
E|-----------------------------------------------------------------------|

e|-----------0-----------------0-----------0-------|
B|-1-1-1-1-3---1-----1-1-1-1-3---1-1-1-1-3---1-----|
G|---------------2-0---------------------------2-0-|
D|-------------------------------------------------|
A|-------------------------------------------------|
E|-------------------------------------------------|

e|-0-0-0---0-3---|
B|-------1-------|
G|-------------0-|
D|---------------|
A|---------------|
E|---------------|

e|-----------------0-3-5-1-3-0-----------------------0-3-5-1-3-0-------|
B|-1-------0-------------------1-3-0-1-------0-------------------1-3-0-|
G|---0---2---3-2-0---------------------0---2---3-2-0-------------------|
D|-----2---------------------------------2-----------------------------|
A|---------------------------------------------------------------------|
E|---------------------------------------------------------------------|

e|-0---------1-1-----5-5-5-3-1-0-------0--------1-1-----1-1-1-0-----|
B|---1---------------------------1-------1----------------------3-1-|
G|-----0-1-2-----2-2---------------2-0-----0-1-2----2-2-------------|
D|------------------------------------------------------------------|
A|------------------------------------------------------------------|
E|------------------------------------------------------------------|

e|-0---------1-1-----5-5-5-3-1-0-------0--------1-1-----1-1-1-0-----|
B|---1---------------------------1-------1----------------------3-1-|
G|-----0-1-2-----2-2---------------2-0-----0-1-2----2-2-------------|
D|------------------------------------------------------------------|
A|------------------------------------------------------------------|
E|------------------------------------------------------------------|

e|-----------------0-3-5-1-3-0-----------------------0-3-5-1-3-0-------|
B|-1-------0-------------------1-3-0-1-------0-------------------1-3-0-|
G|---0---2---3-2-0---------------------0---2---3-2-0-------------------|
D|-----2---------------------------------2-----------------------------|
A|---------------------------------------------------------------------|
E|---------------------------------------------------------------------|

e|-0---------1-1-----5-5-5-3-1-0-------0--------1-1-----1-1-1-0-----|
B|---1---------------------------1-------1----------------------3-1-|
G|-----0-1-2-----2-2---------------2-0-----0-1-2----2-2-------------|
D|------------------------------------------------------------------|
A|------------------------------------------------------------------|
E|------------------------------------------------------------------|

e|----------------------|
B|-1--------------------|
G|---0---2-4-2--1-3-1-0-|
D|-----2----------------|
A|----------------------|
E|----------------------|

Posted in Guitar tab | Tagged: , , , , , , | Leave a Comment »