The M box

Fragments of memories guitar tab

Posted by jacktruong on October 12, 2008

Another sweet song from Final Fantasy 8. To tell the truth, I didn’t really remember this song since I played the game a long time ago, but today, I just find the tab, so I tried it out and it’s absolutely beautiful, enjoy!!!!

Song: Fragments of memories

Game: Final Fantasy 8

Composed by Nobuo Uematsu

Tabbed by Richard Schaefer

e------0---3-----------0-----------------------
B--1-3-------3-----1-----0-------------0-1-----
G----------------0-----------0-2---2-2-----0---
D----------------------------------------------
A----------------------------------------------
E----------------------------------------------

e--3-----0---3-----3-5-7-8-7---3-5---5-5-10-8-7-----4
B----1-3-------3-------------------------------------
G----------------------------------------------------
D----------------------------------------------------
A----------------------------------------------------
E----------------------------------------------------

e--8---5-5-7-8-3-----0-----1---0-1---5-3----------5---1-1-3-5-3-5-7-8
B----------------------------3---------------------------------------
G--------------------------------------------------------------------
D--------------------------------------------------------------------
A--------------------------------------------------------------------
E--------------------------------------------------------------------

e--5---1-0----------------8-7-8-5--------
B----3-------3-1-------------------------
G----------------------------------------
D----------------------------------------
A----------------------------------------
E----------------------------------------

e--8-7-8-5----------10-8-5-3----------7-5-3-5
B--------------------------------------------
G--------------------------------------------
D--------------------------------------------
A--------------------------------------------
E--------------------------------------------

One Response to “Fragments of memories guitar tab”

  1. […] Go to the author’s original blog: Fragments of memories guitar tab […]

Leave a Reply

Fill in your details below or click an icon to log in:

WordPress.com Logo

You are commenting using your WordPress.com account. Log Out / Change )

Twitter picture

You are commenting using your Twitter account. Log Out / Change )

Facebook photo

You are commenting using your Facebook account. Log Out / Change )

Google+ photo

You are commenting using your Google+ account. Log Out / Change )

Connecting to %s

 
%d bloggers like this: