The M box

Melodies of life guitar tab

Posted by jacktruong on October 7, 2008

Yes, another famous piece from Final Fantasy series, this time, it’s from Final Fantasy 9. This piece is one of my favorite, along with Eyes on me and Suteki Da ne

Song:Melodies of Life

Game: Final Fantasy IX

Composed by Nobuo Uematsu

Tabbed by Richard Schaefer

Intro

e--4---2---0---------0-----------2-4-5-4-0-4-2---4-0---------------0
B----------------2-4---4-2-0-----------------------------1-0--------
G------------------------------------------------------------2-1----
D-------------------------------------------------------------------
A-------------------------------------------------------------------
E-------------------------------------------------------------------

Main theme

e------------------------------------------------------------
B------------------------------------------------------------
G----1--1-----------------------------------------1-2-1---1--
D---------4-2---2-1---1-2-4-----------1-2-------2-------2---4
A--2----------------4-------2-----2-4-----4-4-2--------------
E------------------------------------------------------------

e-------------------------------------------------------------
B----0---0-2-0------------------------------------------------
G--1-----------2-2-1-1-----1-2---------------------------1-2--
D----------------------4-4---------6-4-2-------2-----2-4-----4
A------------------------------------------2-4----------------
E-------------------------------------------------------------

e------------------------------------------------------------
B------------------------------------------------------------
G----1--1-----------------------------------------1-2-1---1--
D---------4-2---2-1---1-2-4-----------1-2-------2-------2---4
A--2----------------4-------2-----2-4-----4-4-2--------------
E------------------------------------------------------------

e-------------------------------------------------------------
B----0---0-2-0------------------------------------------------
G--1-----------2-2-1-1-----1-2-------------------------1------
D----------------------4-4---------6-4-2-------2-----4---4-2--
A------------------------------------------2-4----------------
E-------------------------------------------------------------

e-------------------------------------------------------------
B----------------------0--------------------------------------
G--2-1---------------1---2-1-------1-------1-2-----1----------
D------4-2-1-2-4-------------4-3-4-----------------------4----
A-------------------------------------------------------------
E-------------------------------------------------------------

e-------------------------------------------------------------
B------------------------------0------------------------------
G--1-2-1---------1-------------------2------------------------
D--------4-2-1-2---------------------------4------------------
A-------------------------------------------------------------
E-------------------------------------------------------------

e-------------------------------------------------------------
B-------------------------------------------------------------
G--------1-------------------------2-1-1----------------------
D--2---4---1-----1-1-2-1-----------------4-4---2----1-2-4-----
A------------------------2-4-----4----------------4-----------
E-------------------------------------------------------------

e-------------------------------------------------------------
B----------0----------------------------0-------------------0-
G--------1------1---------2-1-1-----------2-2-1-1-----1--2----
D--2---4----------1-------------4-4---4-----------4-----------
A-------------------4-----------------------------------------
E-------------------------------------------------------------

e-----------------------
B-----------------------
G--1---1h2-1------------
D------------1-4-4-----2
A-----------------------
E-----------------------

One Response to “Melodies of life guitar tab”

  1. […] Go to the author’s original blog: Melodies of life guitar tab […]

Leave a Reply

Fill in your details below or click an icon to log in:

WordPress.com Logo

You are commenting using your WordPress.com account. Log Out / Change )

Twitter picture

You are commenting using your Twitter account. Log Out / Change )

Facebook photo

You are commenting using your Facebook account. Log Out / Change )

Google+ photo

You are commenting using your Google+ account. Log Out / Change )

Connecting to %s

 
%d bloggers like this: