The M box

Neon Genesis Evangelion: A Cruel Angel Thesis guitar tab

Posted by jacktruong on October 2, 2008

ok, there are two things that you may want to know about this song:

1- This song is awesome

2- In order to make it sound good, you may need an electric guitar

That’s it, if you don’t have an electric guitar, go find one, if you already have one, then rock the hell out of it. It’s really easy to play

Anime: Neon Genesis Evangelion

Song: A cruel angel’s thesis

Composed by Shiro Sagisu

Intro
e---------------------------------6----------------
B-----------6-------6----6-6--------9---8---6---8--
G---5---8-----8------------------------------------
D--------------------------------------------------
A--------------------------------------------------
E--------------------------------------------------

e--------6---8-----------6---6-------6---6---8--
---8------------6---------------8---------------
G--------------------8--------------------------
D-----------------------------------------------
A-----------------------------------------------
E-----------------------------------------------

Verse 1
e--------------------------------------------------------------------------
B---------------------------------------8-9-8----------------8--9--8-------
G---8--------8-8---10------------------------10--8--10---------------------
D--------8-----------------8-8---8-------------------------------------10--
A--------------------------------------------------------------------------
E--------------------------------------------------------------------------

e---------------------------------------------------
B-------------------------------------9--8----------
G-------7--8--8--7--7----8--10---------------10--8--
D---10----------------------------------------------
A---------------------------------------------------
E---------------------------------------------------

e------------------------------------------------
B--8--8------------------------------------------
G--------10--9--10-------------------------------
D-----------------------10---10---12---12--------
A------------------------------------------------
E------------------------------------------------

e--------------------------------------------------------------------------
B---------------------------------------8-9-8----------------8--9--8-------
G---8--------8-8---10------------------------10--8--10---------------------
D--------8-----------------8-8---8-------------------------------------10--
A--------------------------------------------------------------------------
E--------------------------------------------------------------------------

e-----------------------------------
B-----------------------------------
G-------7--8--8--7--7----8--10------
D---10------------------------------
A-----------------------------------
E-----------------------------------

e-----------------------------------------------
B--9--8------------8--8----------------8--9--8--
G----------10--8----------10--9--10-------------
D-----------------------------------------------
A-----------------------------------------------
E-----------------------------------------------

Verse 2
e--------------------------------------------------------------------
B--------------------------------------------------------------------
G---8--8--7--8--8--7--10--10--8--7-------7--8--8--7--10--7-----------
D-----------------------------------10------------------------10--8--
A--------------------------------------------------------------------
E--------------------------------------------------------------------

e------------------------------------------
B------------------------------------------
G--8--8--7--8--8--7--10--10--8--7--8--10---
D------------------------------------------
A------------------------------------------
E------------------------------------------

e--------------------------------------8--
B--8--9--8---------------8----8--11-------
G------------10--8--10--------------------
D-----------------------------------------
A-----------------------------------------
E-----------------------------------------

Chorus Part 1
e---------------------------------6----------------
B-----------6-------6----6-6--------9---8---6---8--
G---5---8-----8------------------------------------
D--------------------------------------------------
A--------------------------------------------------
E--------------------------------------------------

e--------6---8--------------------------------------
---8------------6------------------------6----------
G--------------------8---7---7---5---7-------8---8--
D---------------------------------------------------
A---------------------------------------------------
E---------------------------------------------------

One Response to “Neon Genesis Evangelion: A Cruel Angel Thesis guitar tab”

  1. […] Go to the author’s original blog: Neon Genesis Evangelion: A Cruel Angel Thesis guitar tab […]

Leave a Reply

Fill in your details below or click an icon to log in:

WordPress.com Logo

You are commenting using your WordPress.com account. Log Out / Change )

Twitter picture

You are commenting using your Twitter account. Log Out / Change )

Facebook photo

You are commenting using your Facebook account. Log Out / Change )

Google+ photo

You are commenting using your Google+ account. Log Out / Change )

Connecting to %s

 
%d bloggers like this: