The M box

Chocobo theme guitar tab

Posted by jacktruong on September 27, 2008

no, they’re not chicken and they’re not edible

a little song about those little cutie we see all the time in Final Fantasy series

This one require a little more practice because you will have to play it fast, but just do it again and again and you’re good to go

Song: Chocobo theme

Composed by Nobuo Uematsu

Tabbed by Richard Schaefer

e------------------------------------------------------0-1
B--3---------3---------------------------------------3----
G------4-0-----4-0-4--0--4---2-0-0-2-0---0-----0-0-4------
D----------2---------------------------3-----3------------
A---------------------------------------------------------
E--------------------------------------------------------- x2

e--0-------------0----3----------------------------------
B------1-------1---3-----3---0-1------------1-0-0-1-0---0
G--------2---2--------------------2-------2-----------2--
D----------4------------------------4-0-4----------------
A--------------------------------------------------------
E--------------------------------------------------------

e--0-------------0----3----------------------------------0---2----------3
B------1-------1---3-----3-------------------------0-1-3-----------------
G--------2---2---------------4-2-2-4-2-0-2---0-2-2-----------------------
D----------4-------------------------------------------------------------
A------------------------------------------------------------------------
E------------------------------------------------------------------------

One Response to “Chocobo theme guitar tab”

  1. […] Go to the author’s original blog: Chocobo theme guitar tab […]

Leave a Reply

Fill in your details below or click an icon to log in:

WordPress.com Logo

You are commenting using your WordPress.com account. Log Out / Change )

Twitter picture

You are commenting using your Twitter account. Log Out / Change )

Facebook photo

You are commenting using your Facebook account. Log Out / Change )

Google+ photo

You are commenting using your Google+ account. Log Out / Change )

Connecting to %s

 
%d bloggers like this: