The M box

Suteki Da Ne guitar tab

Posted by jacktruong on September 24, 2008

yup, another tab, enjoy!!!

Final Fantasy X

Song: Suteki Da ne (Isn’t it beautiful)

Composer:Nobuo Uematsu

Tabbed by: Richard Schaefer

e------1-----0-------------------------0-----0-------------------------------
B----------------1-3-----1---1-----------------------------------------------
G--2-3---0-2-----------------2---2-------------2-----0-2----2--0------2---3-2
D--------------3-----2-3-----2---------------------------0--------2----------
A-------------------------------------------------------------------3--------
E----------------------------------------------------------------------------

e----------0---3-1--0-----1-3-5---------1-0------
B--3-----3-------------3--------------------3-1-3
G------2------------------------------2----------
D------------------------------------------------
A------------------------------------------------
E------------------------------------------------

e-------------------------------------------------------
B-------------------------------------------------------
G----------------0-2---3-2-0-----2---0------------------
D--0---2-3-2---3-----------------------3-2-----3---2-0--
A------------------------------------------------------3
E-------------------------------------------------------

e-----------------------------------------------------
B-----------------------------------------------------
G----------------0-2---3-2-0-----2---0----------------
D--0---2-3-2---3-----------------------3-2---------0-0
A--------------------------------------------3---3----
E-----------------------------------------------------

Repeat

Then the drums come in

e------5---8--------5---------------5---8------------
B--6-8--------8---------8-6---6-6-8---------8---6-5--
G---------------------------7-----------------------7
D----------------------------------------------------
A----------------------------------------------------
E----------------------------------------------------

e------5---8--------5---------------5---8---12---8---10
B--6-8--------8---------8-6---6-6-8--------------------
G---------------------------7--------------------------
D------------------------------------------------------
A------------------------------------------------------
E------------------------------------------------------

e--10---8--------------------8-------------------------
B-----------11---10--------------10---5-----6-6--------
G-----------------------------------------7------------
D------------------------------------------------------
A------------------------------------------------------
E------------------------------------------------------

e--5-------------5------------5---12---8---10
B------8---6---8-----------------------------
G------------------5-------------------------
D--------------------------------------------
A--------------------------------------------
E--------------------------------------------

Leave a Reply

Fill in your details below or click an icon to log in:

WordPress.com Logo

You are commenting using your WordPress.com account. Log Out / Change )

Twitter picture

You are commenting using your Twitter account. Log Out / Change )

Facebook photo

You are commenting using your Facebook account. Log Out / Change )

Google+ photo

You are commenting using your Google+ account. Log Out / Change )

Connecting to %s

 
%d bloggers like this: