The M box

Eyes on me guitar tab

Posted by jacktruong on September 23, 2008

ok, confess time, I’m still stuck at beginner level but it doesn’t mean I can’t play some simple yet beautiful tunes. This is one of them, 100% playable guarranted, if someone as suck as me can play, then you definitely can, just grab any guitar and try this out.

Final Fantasy VIII

Song:Eyes on me

Composer: Nobuo Uematsu( gotta love this guy)

Tabbed by Richard Schaefer (richard@gametabs.net)(credit to this guy)
e-----------0--3-0-------0---------------
B-----1--3-------------3---1------1--3---
G--0---------------------------2---------
D----------------------------------------
A----------------------------------------
E----------------------------------------

Whenever sang my songs, on the stage, on my own...

e-----------0--3-7----------7-8-5---3-5-3
B-----1--3-------------------------------
G--0-------------------------------------
D----------------------------------------
A----------------------------------------
E----------------------------------------

Whenever said my words, wishing they, would be heard...

e--3-8---8-7-5--5--3---0-3-5---5-3--1--1---0---
B----------------------------------------3-----
G----------------------------------------------
D----------------------------------------------
A----------------------------------------------
E----------------------------------------------

I saw you smiling at me, was it real or just my fantasy?

e--0-0----0-1--0-----------------------0-3--
B-------3--------3-3-1-------1-1-----3-----3
G--------------------------2----------------
D-------------------------------------------
A-------------------------------------------
E-------------------------------------------

You'd always be there in the corner, of this tiny little bar...

e-----------0--3-0-------0---------------
B-----1--3-------------3---1------1--3---
G--0---------------------------2---------
D----------------------------------------
A----------------------------------------
E----------------------------------------

My last night here for you, same old songs, just once more... 

e-----------0--3-7----------7-8-5---3-5-3
B-----1--3-------------------------------
G--0-------------------------------------
D----------------------------------------
A----------------------------------------
E----------------------------------------

My last night here with you, maybe yes, maybe no...

e--3-8---8-7-5--5--3---0-3-5---5-3-1---0------
B------------------------------------1----3---
G---------------------------------------------
D---------------------------------------------
A---------------------------------------------
E---------------------------------------------

I kind of liked it your way, how you shyly placed your eyes on me... 

e------------0-1-3-------3-1---0---------
B-----1--3-------------------1-------3--1
G--0-------------------------------------
D----------------------------------------
A----------------------------------------
E----------------------------------------

oh did you ever know, that I had mine on you?

e-----0--3-7---5-5-------5-7--8-5--3-3-----
B--1---------------------------------------
G------------------------------------------
D------------------------------------------
A------------------------------------------
E------------------------------------------

Darling so there you are, with that look on your face... 

e--0-1-3-3---1-1-------1-3-5-5---3-3
B-----------------------------------
G-----------------------------------
D-----------------------------------
A-----------------------------------
E-----------------------------------

as if you're never hurt, as if you're never down...

e-------0--3--7---5-5-------1-5-7--8--7--3---7-5-----
B--1-1-----------------------------------------------
G----------------------------------------------------
D----------------------------------------------------
A----------------------------------------------------
E----------------------------------------------------

Shall I be the one for you? Who pinches you softly, but sure. 

e--3-3-1-8--1---------0--0---------------------
B-----------------1-3-------3-1-0--3----------1
G----------------------------------------------
D----------------------------------------------
A----------------------------------------------
E----------------------------------------------

If frown is shown then, I will know that you are no dreamer.

Solo

e--0--3--5---7-5-3-3-0-------------------0---------0-0---
B------------------------3h5p3-1-------1---3--1----------
G------------------------------------2----------2--------
D--------------------------------------------------------
A--------------------------------------------------------
E--------------------------------------------------------

e--0-3-5-----12-10-8-10--3-----1-0-3-----1-0--------
B--------------------------------------------1-1---3
G---------------------------------------------------
D---------------------------------------------------
A---------------------------------------------------
E---------------------------------------------------

End Solo

e-----------0--3-0-------0-------------------------0--3-7-------7-7-8-5-----3-5-3
B-----1--3-------------3---1------1--3-------1--3--------------------------------
G--0---------------------------2-------------------------------------------------
D--------------------------------------------------------------------------------
A--------------------------------------------------------------------------------
E--------------------------------------------------------------------------------

Leave a Reply

Fill in your details below or click an icon to log in:

WordPress.com Logo

You are commenting using your WordPress.com account. Log Out / Change )

Twitter picture

You are commenting using your Twitter account. Log Out / Change )

Facebook photo

You are commenting using your Facebook account. Log Out / Change )

Google+ photo

You are commenting using your Google+ account. Log Out / Change )

Connecting to %s

 
%d bloggers like this: